Пачка сигарет - Цой - Аккорды на гитаре и бой

Аккорды на гитаре и бой

Вступление в начале(перебор)

E|------7-5-----3----------5-----------7-5-------3--------5-------|
B|----------5-----5----------7-------0-----5-------5--------7-----|
G|-4-5--------5------5-7-------5-4-----------5-------5-7------5-4-|
D|----------------------------------------------------------------|
A|----------------------------------------------------------------|
E|----------------------------------------------------------------|

 

Бой

В песне используется чередование ударов вниз и вверх без применения глушений, но акцент всё же делается на последние два удара из четырех.

Бой в песне "Пачка сигарет" - Кино - Цой

 

Аккорды на гитаре (без баррэ)

Аккорды к песне "Пачка сигарет" - Кино - Цой

Темп - 90 Bpm (ударов в минуту) - Текст песни:

Вступление: Am, C, D7, Em, Am, C, D7, Em

     Em       Am         C         D7     Em 
Я сижу и смотрю в чужое небо из чужого окна,
      Am        C      D7        Em
И не вижу ни одной знакомой звезды.
     Am            C         D7     Em
Я ходил по всем дорогам и туда и сюда,
     Am          C         D7      Em 
Обернулся и не смог разглядеть следы.

        Am              C   D7    Em 
Но если есть в кармане пачка сигарет,
          Am            C         D7        Em 
Значит, всё не так уж плохо на сегодняшний день.
     Am         C          D7        Em 
И билет на самолёт с серебристым крылом,
          Am        C       D7      Em               
Что, взлетая, оставляет земле лишь тень.

И никто не хотел быть виноватым без вина,
И никто не хотел руками жар загребать.
А без музыки и на миру смерть не красна,
А без музыки не хочется пропадать.

Но если есть в кармане пачка сигарет,
Значит, все не так уж плохо на сегодняшний день.
И билет на самолет с серебристым крылом,
Что, взлетая, оставляет земле лишь тень.

Соло на гитаре

1-10-8-7-8-10--10-8-7-8-10--10-8-7-8-10-8--8-8-7---7--8--10-- | -12-10-8-10-12---|
2------------------------------------------------------------ | -----------------|
3*----------------------------------------------------------*|-----------------|
4*----------------------------------------------------------*|-----------------|
5------------------------------------------------------------ | -----------------|
6------------------------------------------------------------ | -----------------|


1-12-10-8-10-12--12-10-8-10-12-10--10-8-7---7--8--10--10-8-7-8-10--10-8-7-8-10-|
2------------------------------------------------------------------------------|
3------------------------------------------------------------------------------|
4------------------------------------------------------------------------------|
5------------------------------------------------------------------------------|
6------------------------------------------------------------------------------|


1-10-8-7-8-10-8--8--7----------------------------------------------------------|
2------------------------------------------------------------------------------|
3------------------------------------------------------------------------------|
4------------------------------------------------------------------------------|
5------------------------------------------------------------------------------|
6------------------------------------------------------------------------------|

Как играть на гитаре и укулеле? Видео-разбор

Подробный и самый полный разбор для начинающих и не очень)

  Армейские песни под гитару слушать онлайн бесплатно в хорошем качестве

Лучшие кавер-версии

Караоке(минусовка)

"Пачка сигарет" на английском

Ремиксы

Скачать в формате GTP

В архиве 7 вариантов песни "Пачка сигарет"

Скачать GTP

Скачать mp3 - 320kbps

Скачать mp3

Как создавалась музыкальная композиция?

Пачка сигарет - Цой - Аккорды на гитаре и бойИстория создания песни. Эта песня вошла в заключительный альбом легендарной группы. Солистом «КИНО» был автор песен и композитор Виктор Цой. Во время выхода альбома «Звезда по имени Солнце» Виктор был еще жив. Однако он не занимался расшифровкой своих композиций. Стиль и качество песен в альбоме получились на самом высоком уровне. Эта работа стала культовым альбомом того времени.

Сначала участники группы хотели назвать альбом «Пачка сигарет», но в самый последний момент почему-то отказались от этой идеи. Несмотря ни на что эта песня стала хитом и подняла группу на пик славы. Миллионы фанатов восхищались группой, солистом и их хитами.

Виктор Цой самостоятельно написал все песни для альбома. Черновая версия песни возникла во время съемок картины «Игла». Это происходило в 1988 году в городе Алма-Ата. Солисту группы очень понравился фильм. Он говорил, что во время съемок не играет, а просто ведет себя естественно, как в реальной жизни. Еще Цою нравилось то, что у его героя минимум слов. Виктор по жизни был не многословен.

Воспоминания аранжировщика Юрия Каспаряна: «Мы подбирали ноты как попало. Тогда нам казалось, что они очень уместны. Несмотря ни на что мелодия вышла хорошая. Аккорды точные и четкие. Еще мне очень понравилась гармония мелодии».

Виктор никогда не объяснял своим поклонникам смысл этой песни. Фанаты сих пор строят множество догадок и занимаются поиском скрытых смыслов. При этом мало кто задумывается о том, что смысл песни лежит на поверхности.

  Перемен требуют наши сердца, текст

Виктор начал курить еще в 14 лет. С тех пор он ни разу не бросал вредную привычку. Наоборот, ему очень нравилось это делать. На песню «Пачка сигарет» сняли множество клипов и кавер-версий.

Занимательные факты о песне «Пачка сигарет»

  1. Практически на каждую песню Цоя были созданы каверы. Знаменитые исполнители до сих пор с удовольствием поют культовые песни группы «КИНО». Группа «Ю-Питер» и ее солист Вячеслав Бутусов в свое время спели песню «Пачка сигарет». Украинский певец Олег Скрипка перевел эту песню на украинский язык и спел на «КиноПробах». В переводе название песни звучало как «Пачка цигарок». Вышла довольно необычная и занимательная версия.
  2. Большинство людей самостоятельно учившихся играть на гитаре начинали именно с этой песни. В песне всего 3 аккорда, к тому же здесь довольно простой гитарный ритм.
  3. В самом начале музыканты планировали назвать альбом не «Звезда по имени Солнце», а не «Пачка сигарет». Однако перед самым выпуском альбома Виктор передумал и сменил название культового альбома.
  4. По мнению слушателей, эта песня входит в сотню лучших рок композиций 20 века на пост-советском пространстве.
  5. Некоторые музыкальные критики считают, что альбом «Звезда по имени Солнце» не покатил. Он не стал популярнее «Группы крови». Этот альбом стал последней работой Виктора Цоя.
  6. Был выпущен огромный тираж альбома на аудиокассетах. Однако участники группы с продаж этого альбома ничего не получили.
  7. В 1993 году была создана обложка альбома «Звезда по имени Солнце». Стилизованную картинку придумал А. Гусев. На официальной обложке изображено солнечное затмение.
  8. Большинство песен Виктора Цоя, в том числе и «Пачку сигарет», англоязычные меломаны относят к специфическому жанру «Russian doomer music». Это означает стереотип персонажа, который относится к пост-советскому времени. Считается, что такие люди страдают от нехватки денег и пристрастию к спиртным напиткам. При этом они увлекаются спортом, музыкой и литературой.
  Кукушка - аккорды для гитары для начинающих

Анализ песни «Пачка сигарет»

Кажется, что смысл этой песни заключается в пропаганде вредной привычки. Однако думать об этом совсем не хочется. Если смотреть с психологической точки зрения, то любое творчество отражает метод проектирования. Это напоминает тест Роршаха, в котором на бумаге есть красные и черные пятна. Если по этому методу рассматривать песню, то этими «пятнами» выступают слова и музыка.

Начинает песню аккорд ми-минор. Оригинал звучит медленно, темп размеренный, голос низкий и задумчивый. С первых нот песни человек понимает, что песня не о веселом времяпровождении и не о шикарной жизни.

В тексте песни присутствует пессимизм. Исполнитель чувствует себя растерянным. Он понимает, что больше никогда не сможет вернуться в прежней жизни. Данный факт очень гложет автора песни.

Хочется отметить, что в куплете глагол «ходить» звучит в прошлом времени. То есть автор во время написания песни находился в неподвижном состоянии. Он имел в своем распоряжении определенное время, чтобы осмыслить настоящее и определить свой дальнейший путь в жизни.

Сделай репост:
  • Добавить ВКонтакте заметку об этой странице
  • Twitter
  • Facebook
  • Мой Мир
  • Одноклассники