Перемен требуют наши сердца, текст, аккорды, слушать и скачать ремикс песни

   Скачать mp3 (320kbps) - Цой - Перемен

   Скачать в формате Guitar Pro(.GTP) [10 файлов]

Виктор Цой написал песню «Хочу перемен» в 1985 году. Тогда музыканту было 22 года. Впервые она была исполнена группой «Кино» на Ленинградском фестивале рок-музыки. Интересно то, что Цой никогда не ассоциировал песню с протестом. Ее смысл заключается в изменениях внутри самого человека. Музыкант предпочитал не говорить о смысле любой из своих композиций.

Многие хиты живут собственной жизнью и даже переживают своего автора. Так песня «Хочу перемен» звучала летом 1991 года, когда в столице России граждане выстраивали баррикады возле Белого Дома. В 2014 году «Скай» перевели композицию на украинский язык и спели ее на Майдане в столице Украины – Киеве.

  Кукушка - аккорды для гитары для начинающих

Текст песни Цоя - "Перемен"

Вместо тепла - зелень стекла,
Вместо огня - дым,
Из сетки календаря выхвачен день.
Красное солнце сгорает дотла,
День догорает с ним,
На пылающий город падает тень.

Перемен! - требуют наши сердца.
Перемен! - требуют наши глаза.
В нашем смехе и в наших слезах,
И в пульсации вен:
"Перемен!
Мы ждем перемен!"

Электрический свет продолжает наш день,
И коробка от спичек пуста,
Но на кухне синим цветком горит газ.
Сигареты в руках, чай на столе - эта схема проста,
И больше нет ничего, все находится в нас.

Перемен! - требуют наши сердца.
Перемен! - требуют наши глаза.
В нашем смехе и в наших слезах,
И в пульсации вен:
"Перемен!
Мы ждем перемен!"

Мы не можем похвастаться мудростью глаз
И умелыми жестами рук,
Нам не нужно все это, чтобы друг друга понять.
Сигареты в руках, чай на столе - так замыкается круг,
И вдруг нам становится страшно что-то менять.

Перемен! - требуют наши сердца.
Перемен! - требуют наши глаза.
В нашем смехе и в наших слезах,
И в пульсации вен:
"Перемен!
Мы ждем перемен!"

Перемен! - требуют наши сердца.
Перемен! - требуют наши глаза.
В нашем смехе и в наших слезах,
И в пульсации вен:
"Перемен!
Мы ждем перемен!"


Гитарный бой

Гитарный бой в песне Цоя - Перемен требуют наши сердца

 

  Как сочинить текст песни самому

Аккорды для гитары

Аккорды для гитары в песне Цоя - Перемен требуют наши сердца

Проигрыш:
F#m  F#m  Bm  Bm
F#m  F#m  Bm  Bm G# A(баррэ)

    F#m
  Вместо тепла - зелень стекла
    A
  Вместо огня -- дым
  E                                        F#m
  Из сетки календаря выхвачен день
    F#m
  Красное солнце сгорает дотла
   A
  День догорает с ним
   E                                    F#m
  На пылающий город падает тень 

             Bm     A          E        F#m
        Перемен требуют наши сердца
             Bm      A          E       F#m
        Перемен требуют наши глаза
                  Bm                         A
        В нашем смехе и в наших слезах
                 E          F#m
        И в пульсации вен
          Bm        E
        Перемен,  мы ждем перемен

Проигрыш:
F#m  F#m  Bm  Bm
F#m  F#m  Bm  Bm  G#  A 

Электрический свет продолжает наш день
И коробка от спичек пуста
Но на кухне синим цветком горит газ
Сигареты в руках чай на столе
Эта схема проста
И больше нет ничего все находится в нас 

Припев

Проигрыш

Мы не можем похвастаться мудростью глаз
И умелыми жестами рук
Нам не нужно все это чтобы друг-друга понять
Сигареты в руках чай на столе --
Так замыкается круг
И вдруг нам становится страшно что-то менять 

Припев - 2 раза

 

Оригинальная табулатура

Вступление
Вся партия для соло-гитары.

------------------------------------------------------------------------------
------------------------------------------------------------------------------
------------------------------------------------------------------------------
----------------------------------------------------3-3-3-3-3-3-3-3-3-3-3-3---
--------------------------------2-2-2-2-2-2-2-2-2-2-2-2-2-2-2-2-2-2-2-2-2-2---
-9/2-2-2-4-5-4-5-4-2-2-4-5-4-5-2----------------------------------------------


--------------------------------------------------------4---------------------
--------------------------------------------------------4---------------------
--------------------------------------------------------5---------------------
--------------------------------------------------------6---------------------
--------------------------------2-2-4-5-4-5-4-2-2-4-5/7-6---------------------
-9/2-2-2-4-5-4-5-4-2-2-4-5-4-5-2------------------------4---------------------


------------------------------------------------------------------------------
------------------------------------------------------------------------------
------------------------------------------------------------------------------
----------------------------------------------------3-3-3-3-3-3-3-3-3-3-3-3---
--------------------------------2-2-2-2-2-2-2-2-2-2-2-2-2-2-2-2-2-2-2-2-2-2---
-9/2-2-2-4-5-4-5-4-2-2-4-5-4-5-2----------------------------------------------


--------------------------------------------------------4---------------------
--------------------------------------------------------4---------------------
--------------------------------------------------------5---------------------
--------------------------------------------------------6---------------------
--------------------------------2-2-4-5-4-5-4-2-2-4-5/7-6---------------------
-9/2-2-2-4-5-4-5-4-2-2-4-5-4-5-2------------------------4---------------------


-2--2-2-2--2-2-2--2-2-2--2-2-2--2-2-2--5--4-----------------------------------
-2--2-2-2--2-2-2--2-2-2--2-2-2--2-2-2--5--4-----------------------------------
-2--2-2-2--2-2-2--2-2-2--2-2-2--2-2-2--6--5-----------------------------------
-4--4-4-4--4-4-4--4-4-4--4-4-4--4-4-4--7--6-----------------------------------
-4--4-4-4--4-4-4--4-4-4--4-4-4--4-4-4--7--6-----------------------------------
-2--2-2-2--2-2-2--2-2-2--2-2-2--2-2-2--5--4-----------------------------------


Куплет
------------------------------------------------------------------------------
--------------------------------------0---------------------------------------
----------------------------------------2-2-2-2-2-1-2-1-2--2-2-2-2-2-1-2-1-2--
-2-2-2-2-2-1-2-1-2--2-2-2-2-2-1-2-1-2-----------------------------------------
------------------------------------------------------------------------------
------------------------------------------------------------------------------


------------------------------------------------------------------------------
------------------------------------------------------------------------------
-------------------------------------------------------1-2-2-2-2-2-1-2-1-2-4--
-2-2-2-2-1-2-1-2--2-2-2-2-2-1-2-1-2--4-4-4-4-4-2-4-2-4------------------------
------------------------------------------------------------------------------
------------------------------------------------------------------------------


------------------------------------------------------------------------------
--------------------------------------0---------------------------------------
----------------------------------------2-2-2-2-2-1-2-1-2--2-2-2-2-2-1-2-1-2--
-2-2-2-2-2-1-2-1-2--2-2-2-2-2-1-2-1-2-----------------------------------------
------------------------------------------------------------------------------
------------------------------------------------------------------------------


------------------------------------------------------------------------------
------------------------------------------------------------------------------
-------------------------------------------------------1-2-2-2-2-2-1-2-1-2-4--
-2-2-2-2-1-2-1-2--2-2-2-2-2-1-2-1-2--4-4-4-4-4-2-4-2-4------------------------
------------------------------------------------------------------------------
------------------------------------------------------------------------------


Припев
-0-0---0-0-------------------------------------------0-0---0-0----------------
-0-----0--0------------------------------------------0-----0--0---------------
-4-----4---0-------------------1-2-2-2-2-2-1-2-1-2-4-0-----4---0--------------
-------------4-4-4-4-4-2-4-2-4------------------------------------------------
------------------------------------------------------------------------------
------------------------------------------------------------------------------


-----------------------------------------0-0---0-0----------------------------
-----------------------------------------0-----0--0---------------------------
-------------------1-2-2-2-2-2-1-2-1-2-4-0-----4---0--------------------------
-4-4-4-4-4-2-4-2-4-----------------------------------4-4-4-4-4-2-4-2-4--------
------------------------------------------------------------------------------
------------------------------------------------------------------------------


-----------------------0-0---0------------------------------------------------
-----------------------0-----0------------------------------------------------
-1-2-2-2-2-2-1-2-1-2-4-0-----4------------------------------------------------
-----------------------4------------------------------------------------------
------------------------------------------------------------------------------
------------------------------------------------------------------------------

Знак "/" означает слайд-скольжение.
Песня снята(подобрана) с концерта В.Цоя.
Все позиции соответствуют оригиналу.

 

  Любите девушки простых романтиков, аккорды для гитары

Разбор песни на гитаре

 

Как играть на укулеле

 

Официальное видео

 

Караоке

 

Лучшие ремиксы на песню

 

Симфоническое Кино - Хочу перемен

 

Надежда Кадышева - Перемен!

 

В чем смысл песни

 

Сделай репост:
  • Добавить ВКонтакте заметку об этой странице
  • Twitter
  • Facebook
  • Мой Мир
  • Одноклассники