Здравствуй небо в облаках, аккорды и бой для гитары и укулеле без баре для начинающих, текст песни

   Скачать mp3 (320kbps) - Конец фильма - «Юность в сапогах»

Скачать в формате GTP

Аккорды для гитары без баррэ - Здравствуй небо в облаках

Это аккорды используемые в оригинальном исполнении песни Конец фильма - Здравствуй небо в облаках.

Аккорды для гитары без баррэ - Здравствуй небо в облаках

Если вам трудно брать баррэ, можно заменить аккорд "F" на вариант попроще, так называемый упрощённый "F"(Easy F). Аккорды без баррэ отлично подойдут для начинающих гитаристов.

упрощённый аккорд "F"(Easy F) без баррэ

Гитарный бой в песне Конец фильма - Юность в сапогах

Посмотрите на схему гитарного боя, а также видео-урок с подробным разбором боя "шестёрка" с глушением.

Схема боя:

Гитарный бой в песне Конец фильма - Юность в сапогах

Видео-инструкция:

 

Текст и аккорды песни

Вступление:

  Am
e|-----------------------------0-|
B|-3-3-3-1-0-1-----3-3-3-1-0-1---|
G|-------------2-----------------|

             Am
Здравствуй, небо в облаках,
            Am
Здравствуй, юность в сапогах!
      Am
Пропади, моя тоска,
       Am
Вот он я, привет, войска! 

   F                G
e|------------------------|
B|-----1---1------------3-|
G|---2-------2--------4---|
D|-3-----------3----5-----|

            F
Эх, рельсы-поезда,
         G
Как я попал сюда?

          С          Em         Am         F
e|------|-0-1--0---|-0-1--0---|-0-1--0---|-0-1--0---|
B|--1-3-|--------3-|--------3-|--------3-|--------3-|
G|------|----------|----------|----------|----------|
          C             Em
Здесь не то что на гражданке,
      Am             F
На какой-нибудь гражданке,
          C          Em
Жизнь снаружи и с изнанки
        Am       F
Сам попробуй изучи.
       Am
Для печали нет причин.

          F
Непросто быть собой,
         G
Когда шагает строй.

          С          Em         Am         F
e|------|-0-1--0---|-0-1--0---|-0-1--0---|-0-1--0---|
B|--1-3-|--------3-|--------3-|--------3-|--------3-|
G|------|----------|----------|----------|----------|
        C              Em
Только сердце птицей бьётся,
     Am        F
И ликует, и смеётся,
    C       Em
И ему не удаётся
        Am             F
Под конвоем петь в груди.
            Am         
Знать бы, что там впереди.

Припев:
  C  Em   Dm
Где-то течёт река,
        Am            G         F
Где-то дом, где всё ждут нас назад.
C Em     Dm
Это не грусть слегка,
        Am      G        F
Просто ветер щекочет глаза.

  C  Em   Dm
Где-то течёт река,
        Am            G         F
Где-то дом, где всё ждут нас назад.
C Em     Dm
Это не грусть слегка,
        Am      G        F
Просто ветер щекочет глаза.

  Am
e|-----------------------------0-|
B|-3-3-3-1-0-1-----3-3-3-1-0-1---|
G|-------------2-----------------|

        Am
Шаг вперёд и два назад,
         Am
Кто бы знал, чему я рад?
          Am
Просто сбросил я печаль
        Am
Словно голову с плеча.

   F                G
e|------------------------|
B|-----1---1------------3-|
G|---2-------2--------4---|
D|-3-----------3----5-----|

           F
На стыках рельсов путь,
          G
Виски вбивает пульс.

          С          Em         Am         F
e|------|-0-1--0---|-0-1--0---|-0-1--0---|-0-1--0---|
B|--1-3-|--------3-|--------3-|--------3-|--------3-|
G|------|----------|----------|----------|----------|

       C               Em
Ты поймёшь, как будет нужно,
        Am               F
Где предательство, где дружба,
        C            Em
Где карьера, а где служба,
       Am         F
И как сердце безоружно,
       C         Em
Как обманчива наружность,
          Am             F
Сколько звёзд и сколько лычек,
         C             Em
Сколько лиц, личин, обличий,
       Am            F
И как мало в нас различий.

Припев:
  C  Em   Dm
Где-то течёт река,
        Am            G         F
Где-то дом, где всё ждут нас назад.
C Em     Dm
Это не грусть слегка,
        Am      G        F
Просто ветер щекочет глаза. 

  C  Em   Dm
Где-то течёт река,
        Am            G         F
Где-то дом, где всё ждут нас назад.
C Em     Dm
Это не грусть слегка,
        Am      G        F
Просто ветер щекочет глаза.

Табулатура к песне

Короткая тема появляющаяся несколько раз в каждой серии.
    Am                         C
1)------0.------0.-----0.----------0.-----0.-----0.-----
2)----1---1-------1------1-------1---1------1------1----
3)--2.------2-------2------2.--0.------0------0------0.-
4)------------------------------------------------------
5)------------------------------------------------------
6)------------------------------------------------------
    F                          E
1)------1.------1.-----1.----------0.-----0.-----0.-----
2)----1---1-------1------1-------0---0------0------0----
3)--2.------2-------2------2.--1.------1------1------1.-
4)------------------------------------------------------
5)------------------------------------------------------
6)------------------------------------------------------

 

  Пачка сигарет - Цой - Аккорды на гитаре и бой

Как играть на укулеле

Разбор песни на Конец фильма - Юность в сапогах на укулеле

 

Официальное видео из сериала "Солдаты" (OST)

 

Караоке

 

Ремиксы на песню

 

За кадром

 

О песне

Здравствуй небо в облаках, аккорды и бой для гитары и укулеле без баре для начинающих, текст песни

Музыкальную композицию для знаменитого телесериала «Солдаты» создали и записали летом 2004 года. Заказчиком данного трека стал продюсерский центр «Леан М». Написанием музыки и текста занялся Евгений Феклистов.

Черновой вариант саундтрека – «Солдатская».  Изначально в композиции присутствовал еще один куплет. В конечном итоге его все-таки внесли в основную версию композиции.

Телесериал стал очень нашумевшим, поэтому Феклистову пришлось написать несколько новых текстов. Они стали саундтреками ко второму и третьему сезону сериала.

Песни буквально стали народными. Их начали ставить на рингтоны и делать ремиксы.

Сделай репост:
  • Добавить ВКонтакте заметку об этой странице
  • Twitter
  • Facebook
  • Мой Мир
  • Одноклассники